Teknik Main Gitar

Teknik main gitar haruslah step by step atau jangan pernah terburu-buru. Latihlah teknik bermain gitar dengan tempo yang pelan terlebih dahulu, setelah itu baru tingkatkan temponya secara bertahap. Dengan latihan yang bertempo lambat dan akurat, maka kecepatannya dengan sendirinya akan berkembang.

Nah, kenapa kita selalu dianjurkan untuk memulai setiap teknik dengan tempo yang pelan terlebih dahulu? Ini jawabannya: Saat otot kita mulai mengenali pola dan gerakan pada teknik yang spesifik yang kita mainkan/latih di gitar, maka pada saat itu pula otak kita melakukan proses perekaman. “Practice makes perfect” (berlatih membuatnya sempurna) adalah kalimat yang hampir benar. Tapi kalimat yang perlu kamu hayati benar-benar mungkin ini: “Practice makes permanent” (berlatih membuatnya permanen/tetap).
Penjarian   Satu hal yang membuat pemain gitar yang hebat adalah ketangkasan jari yang baik dan bersih .Hal ini penting sebagai awal atau gitaris menengah untuk berlatih teknik yang akan meningkatkan kecekatan jari. saya akan berbagi beberapa teknik yang digunakan dan masih digunakan sampai sekarang untuk meningkatkan kecepatan dan ketangkasan jari.
Hal ini dapat menjadi sedikit membosankan, tetapi pastikan setiap bermain not hrus bersih dan sesuai tempo. tambah kecepatan setelah kamu dapat memainkannya dengan baik. mainkan cara ini dari atas ke bawah.


E||-----------------|-----------------|----------------|-----------------|-----------------|--1---2---3---4-||
B||-----------------|-----------------|----------------|-----------------|--1---2---3---4--|----------------||
G||-----------------|-----------------|----------------|-1---2---3---4---|-----------------|----------------||
D||-----------------|-----------------|--1---2---3---4-|-----------------|-----------------|----------------||
A||-----------------|--1---2---3---4--|----------------|-----------------|-----------------|----------------||
E||-1---2---3---4 --|-----------------|----------------|-----------------|-----------------|----------------||
Latihan berikutnya adalah serupa, hanya dalam pola yang berbeda.
Pastikan untuk menggunakan semua empat jari dan berhati-hati jangan sampai terdengar kotor,
suara berisik menyebalkan akan terjadi ketika bermain not sembarangan/tidak tepat.


E||-1---4---2---3--|-----------------|----------------|-----------------|-----------------|------------------||
B||----------------|--1---4---2---3--|----------------|-----------------|-----------------|------------------||
G||----------------|-----------------|--1---4---2---3-|-----------------|-----------------|------------------||
D||----------------|-----------------|----------------|-1---4---2---3---|-----------------|------------------||
A||----------------|-----------------|----------------|-----------------|--1---4---2---3--|------------------||
E||----------------|-----------------|----------------|-----------------|-----------------|--1---4---2---3---||
Berikut ini adalah riff sederhana saya buat untuk berlatih berulang-ulang,
naik-turun fretboard...keep practice


E||-----------------|-----------------|----------------|---------------||
B||-----------------|-----------------|----------------|---------------||
G||----------6---7--|--9---7---6------|----------6---7-|-9---7---6 ----||
D||-7---9 ----------|--------------9--|--7---9---------|---------------||
A||-----------------|-----------------|----------------|---------------||
E||-----------------|-----------------|----------------|---------------||
Setelah pelajaran yang di atas..coba yg di bawah ini..mainkan/latihlah nada ini saat kamu sambil nonton tv..
atau lagi baca buku atau apa saja...
secara bertahap... mainkan lebih cepat saat kamu menjadi lebih baik.

setelah kamu membangun ketangkasan jari kamu,kamu sekarang dapat mulai menyerang skala dan mode,
terlihat di bawah ini adalah mode sederhana.

E||-----------------------|-----------------------|------------------12---|--13---15--||
B||-----------------------|-----------------------|--12---13---15-------|-------------||
G||-----------------------|------------12---14--|------------------------|-------------||
D||-----------------12---|--14---15------------|------------------------|-------------||
A||--12---14---15------|-----------------------|------------------------|-------------||
E||-----------------------|-----------------------|------------------------|-------------||
 sekarang mari melihat pola yang digunakan mode dan 'bermain keluar'.
,kamu bisa melakukannya pada semua scale dan mode,
ini bekerja sangat baik untuk membangun kecepatan dan ketangkasan.

E||-----------------------|-----------------------|--------------------------|
B||-----------------------|-----------------------|--------------------------|
G||-----------------------|-----------------------|--------------------------|
D||------------------12--|------------12----14-|------12----14----15---|
A||--12---14---15------|--14---15------------|--15---------------------|
E||-----------------------|-----------------------|--------------------------|

--------------------------|--------------------------|
--------------------------|--------------------------|
--------------------12---|--------------12----14--|
--12----14----15-------|--14----15--------------|
--------------------------|--------------------------|
--------------------------|--------------------------|

--------------------------|--------------------------|
--------------------12---|--------------12----13--|
--------12----14--------|--12----14--------------|
--15---------------------|--------------------------|
--------------------------|--------------------------|
--------------------------|--------------------------|

--------------------------|--------------------12---|--------------12----13----|
-----12----13----15----|--12----13----15-------|--13----15----------------|
--14---------------------|--------------------------|----------------------------|
--------------------------|--------------------------|----------------------------|
--------------------------|--------------------------|----------------------------|
--------------------------|--------------------------|----------------------------|


--------12----13----15----||
--15------------------------||
-----------------------------||
-----------------------------||
-----------------------------||
-----------------------------||
Untuk lebih jelas tentang scale (jalur melody) silahkan baca artikelnya  di sini  .
Semoga artikel Teknik Main Gitar ini bisa sedikit membantu anda dalam menentukan pola latihan yang anda pertanyakan. Teknik Main Gitar bagian 2 dan seterusnya akan saya share di waktu mendatang guna melengkapi artikel tentang Teknik Main Gitar ini. Mari belajar gitar sama-sama \m/.
 
 
 


Ditulis Oleh : Lirik & Chord Hari: 12.29 Kategori: »


Komentar untuk Teknik Main Gitar